Linkin Park - With You

b-tabs.xgate.pl

    Tabbed by: Pawel Mansfeld
mail


   Tuning: E A D G


Intro (x4):

G|--------------------------------|
D|--------------------------------|
A|--------------------------------|
E|0---0---------------------------|

Pre-Chorus (x4):

G|--------------------------------|
D|--------------------------------|
A|--------------------------------|
E|2---2-2-3---2-2---2---2---2-----|

Chorus:

G|--------------------------------|--------------------------------|
D|--------------------------------|--------------------------------|
A|----------------2---------------|----------------5---------------|
E|0-------------------------------|3-------------------------------|

Verse:

(SILENCE)

[Pre-Chorus (x4)] + [Chorus]
[Verse] + [Pre-Chorus (x4)] + [Chorus (x2)]


Bridge (x5):
G|--------------------------------|
D|--------------------------------|
A|--------------------------------|
E|0---0---------0-----0-----------|


[Chorus (x4)]


End (x4): (Fade Out...)
G|--------------------------------|
D|--------------------------------|
A|--------------------------------|
E|0---0---------------------------|


b-tabs.xgate.pl


Wszystkie prawa zastrzeżone.
Tabulatury zamieszczono w celach edukacyjnych.