A Perfect Circle - Freedom of Choice

b-tabs.xgate.pl

    Tabbed by: Pawel Mansfeld
mail


   Tuning: C F C F



Verse:
F |--------------------------------|
C |--------------------------------|
F |2-------2-----------------------|
C |----------------0-------0-------|

F |------------------------|
C |------------------------|
F |2-----------------------|
C |--------3-------7-------|


Chorus:
F |--------------------------------|
C |--------------------------------|
F |--------------------------------|
C |7---7---7-10--10-3---3---3-0--0-|

F |--------------------------------|
C |--------------------------------|
F |--------------------------------|
C |7---7---7-10--10-3---3---3------|

F |--------------------------------|
C |--------------------------------|
F |--------------------------------|
C |7---7---7-10--10-3---3---3-0--0-|

F |--------------------------------|
C |--------------------------------|
F |-----------------10--10--10-----|
C |7---7---7-10--10-----------7---7|


Post-Chorus:
F |----------------------------------------------|
C |----------------------------------------------|
F |----------------------------------------------|
C |9------------7-7-7-9------------7-7-7-9-------|

F |----------------------------------------------|
C |----------------------------------------------|
F |----------------------------------------------|
C |7--------5-5-5-7\----------5-5-5-7\-----------|

F |----------------------------------------------|
C |----------------------------------------------|
F |----------------------------------------------|
C |5-5-5-7\---------5-5-5-7\---------------------|

F |----------------------------------------------|
C |----------------------------------------------|
F |----------------------------------------------|
C |2---2---2-0---0----------2---2---2-0---0------|

F |----------------------------------------------|
C |----------------------------------------------|
F |----------------------------------------------|
C |2---2---2-0---0----------2---2---2-0---0------|


[Verse]

[Chorus]

[Post-Chorus]

[Chorus]


End:
F |----------------------------------------------|
C |----------------------------------------------|
F |----------------------------------------------|
C |2---2---2-0---0----------2---2---2-0---0------|

F |----------------------------------------------|
C |----------------------------------------------|
F |----------------------------------------------|
C |2---2---2-0---0----------2---2---2-0---0------|


b-tabs.xgate.pl


Wszystkie prawa zastrzeżone.
Tabulatury zamieszczono w celach edukacyjnych.